BLINK 182 ~ Whats My Age Again

#----------------------------------PLEASE NOTE---------------------------------#
#This file is the author's own work and represents their interpretation of the #
#song. You may only use this file for private study, scholarship, or research. #
#------------------------------------------------------------------------------##

                         WHAT'S MY AGE AGAIN? (Bassline)
                            As recorded by Blink 182
                    (From the 1999 Album ENEMA OF THE STATE)

Words and Music by Tom DeLonge and Mark Hoppus
Transcribed by Craig Clayton

 Intro
  Fast Rock Q=160
 4/4
  Gtr I
  W          W          W          W
|----------|----------|----------|------||
|----------|----------|----------|------||
|----------|----------|----------|------||
|----------|----------|----------|------||


 1st. Verse
  E E E E E E E E   E E E E E E E E   E E E E E E E E   E E E E E E E E
|-----------------|-----------------|-----------------|-----------------|
|-----------------|-----------------|-----------------|-----------------|
|-2-2-2-2---------|-4-4-4-4-6-6-6-6-|-2-2-2-2---------|-4-4-4-4-6-6-6-6-|
|---------2-2-2-2-|-----------------|---------2-2-2-2-|-----------------|


  E E E E E E E E   E E E E E E E E   E E E E E E E E   E E E E E E E E
|-----------------|-----------------|-----------------|-----------------|
|-----------------|-----------------|-----------------|-----------------|
|-2-2-2-2---------|-4-4-4-4-6-6-6-6-|-2-2-2-2---------|-4-4-4-4-6-6-6-6-|
|---------2-2-2-2-|-----------------|---------2-2-2-2-|-----------------|


  E E E E E E E E   E E E E E E E E   E E E E E E E E   E E E E E E E E
|-----------------|-----------------|-----------------|-----------------|
|-----------------|-----------------|-----------------|-----------------|
|-2-2-2-2---------|-4-4-4-4-6-6-6-6-|-2-2-2-2---------|-4-4-4-4-4-4-4-4-|
|---------2-2-2-2-|-----------------|---------2-2-2-2-|-----------------|


                    Chorus
  E E E E E E E E    Q.   E Q.   E   Q.   E E E E E   Q.   E Q.   E
|-----------------||---------------|----------------|---------------|
|-----------------||---------------|----------------|---------------|
|-2-2-2-2-2-2-2S4-||------4-4----6-|-6----2-2-2-2-2-|------4-4----6-|
|-----------------||-2-------------|----------------|-2-------------|


  Q.   E E E E E   Q.   E Q.   E   Q.   E E E E E   Q.   E Q.   E
|----------------|---------------|----------------|---------------|
|----------------|---------------|----------------|---------------|
|-6----2-2-2-2-2-|------4-4----6-|-6----2-2-2-2-2-|------4-4----6-|
|----------------|-2-------------|----------------|-2-------------|


                                      ~~~~~~~~~~~~~~~
  E E E E E E E E   E E E E E E E E   W          +W
|-----------------|-----------------|----------|--------||
|-----------------|-----------------|----------|--------||
|-6-6-6-6-6-6-6-6-|-4-4-4-4-4-4-4-4-|-2--------|-(2)----||
|-----------------|-----------------|----------|--------||


 2nd. Verse
  E E E E E E E E   E E E E E E E E   E E E E E E E E   E E E E E E E E
|-----------------|-----------------|-----------------|-----------------|
|-----------------|-----------------|-----------------|-----------------|
|-2-2-2-2---------|-4-4-4-4-6-6-6-6-|-2-2-2-2---------|-4-4-4-4-6-6-6-6-|
|---------2-2-2-2-|-----------------|---------2-2-2-2-|-----------------|


  E E E E E E E E   E E E E E E E E   E E E E E E E E   E E E E E E E E
|-----------------|-----------------|-----------------|-----------------|
|-----------------|-----------------|-----------------|-----------------|
|-2-2-2-2---------|-4-4-4-4-6-6-6-6-|-2-2-2-2---------|-4-4-4-4-4-4-4-4-|
|---------2-2-2-2-|-----------------|---------2-2-2-2-|-----------------|


                    Chorus
  E E E E E E E E    Q.   E Q.   E   Q.   E E E E E   Q.   E Q.   E
|-----------------||---------------|----------------|---------------|
|-----------------||---------------|----------------|---------------|
|-2-2-2-2-2-2-2-2-||------4-4----6-|-6----2-2-2-2-2-|------4-4----6-|
|-----------------||-2-------------|----------------|-2-------------|


  Q.   E E E E E   Q.   E Q.   E   Q.   E E E E E   Q.   E Q.   E
|----------------|---------------|----------------|---------------|
|----------------|---------------|----------------|---------------|
|-6----2-2-2-2-2-|------4-4----6-|-6----2-2-2-2-2-|------4-4----6-|
|----------------|-2-------------|----------------|-2-------------|


                                      Interlude
  E E E E E E E E   E E E E E E E E    E E E E E E E E   E E E E E E E E
|-----------------|-----------------||-----------------|-----------------|
|-----------------|-----------------||-----8-----8---8-|-----6-----6---6-|
|-6-6-6-6-6-6-6-6-|-4-4-4-4-4-4-4-4-||-6-6---6-6---6---|-4-4---4-4---4---|
|-----------------|-----------------||-----------------|-----------------|


  E E E E E E E E   E E E E E E E E   E E E E E E E E   E E E E E E E E
|-----------------|-----------------|-----------------|-----------------|
|-----4-----4---4-|-----6-----6---6-|-----8-----8---8-|-----6-----6---6-|
|-2-2---2-2---2---|-4-4---4-4---4---|-6-6---6-6---6---|-4-4---4-4---4---|
|-----------------|-----------------|-----------------|-----------------|


  E E E E E E E E   E E E E E E E E   E E E E E E E E   E E E E E E E E
|-----------------|-----------------|-----------------|-----------------|
|-----4-----4---4-|-----6-----6---6-|-----8-----8---8-|-----6-----6---6-|
|-2-2---2-2---2---|-4-4---4-4---4---|-6-6---6-6---6---|-4-4---4-4---4---|
|-----------------|-----------------|-----------------|-----------------|


  E E E E E E E E   E E E E E E E E   E E E E E E E E   E E E E E E E E
|-----------------|-----------------|-----------------|-----------------|
|-----4-----4---4-|-----6-----6---6-|-----8-----8---8-|-----6-----6---6-|
|-2-2---2-2---2---|-4-4---4-4---4---|-6-6---6-6---6---|-4-4---4-4---4---|
|-----------------|-----------------|-----------------|-----------------|


                                      Chorus
  E E E E E E E E   E E E E E E E E    Q.   E Q.   E   Q.   E E E E E
|-----------------|-----------------||---------------|----------------|
|-----4-----4---4-|---6---6---6-----||---------------|----------------|
|-2-2---2-2---2---|-4---4---4---4-4-||------4-4----6-|-6----2-2-2-2-2-|
|-----------------|-----------------||-2-------------|----------------|


  Q.   E Q.   E   Q.   E E E E E   Q.   E Q.   E   Q.   E E E E E
|---------------|----------------|---------------|----------------|
|---------------|----------------|---------------|----------------|
|------4-4----6-|-6----2-2-2-2-2-|------4-4----6-|-6----2-2-2-2-2-|
|-2-------------|----------------|-2-------------|----------------|


  Q.   E Q.   E   E E E E E E E E   E E E E E E E E    Q.   E Q.   E
|---------------|-----------------|-----------------||---------------|
|---------------|-----------------|-----------------||---------------|
|------4-4----6-|-6-6-6-6-6-6-6-6-|-4-4-4-4-4-4-4-4-||------4-4----6-|
|-2-------------|-----------------|-----------------||-2-------------|


  Q.   E E E E E   Q.   E Q.   E   Q.   E E E E E   Q.   E Q.   E
|----------------|---------------|----------------|---------------|
|----------------|---------------|----------------|---------------|
|-6----2-2-2-2-2-|------4-4----6-|-6----2-2-2-2-2-|------4-4----6-|
|----------------|-2-------------|----------------|-2-------------|


  Q.   E E E E E   Q.   E Q.   E   E E E E E E E E   E E E E E E E E
|----------------|---------------|-----------------|-----------------||
|----------------|---------------|-----------------|-----------------||
|-6----2-2-2-2-2-|------4-4----6-|-6-6-6-6-6-6-6-6-|-4-4-4-4-4-4-4-4-||
|----------------|-2-------------|-----------------|-----------------||


 Outro
  Q.   E Q.   E   Q.   E E E E E   Q.   E Q.   E   Q.   E E E E E
|---------------|----------------|---------------|----------------|
|---------------|----------------|---------------|----------------|
|------4-4----6-|-6----2-2-2-2-2-|------4-4----6-|-6----2-2-2-2-2-|
|-2-------------|----------------|-2-------------|----------------|


  Q.   E Q.   E   Q.   E E E E E   Q.   E Q.   E   E E E E E E E E
|---------------|----------------|---------------|-----------------|
|---------------|----------------|---------------|-----------------|
|------4-4----6-|-6----2-2-2-2-2-|------4-4----6-|-6-6-6-6-6-6-6-6-|
|-2-------------|----------------|-2-------------|-----------------|


  E E E E E E E E   W          +W           +W           +W
|-----------------|----------|------------|------------|--------*|
|-----------------|----------|------------|------------|--------*|
|-4-4-4-4-4-4-4-4-|-2--------|-(2)--------|-(2)--------|-(2)----*|
|-----------------|----------|------------|------------|--------*|


Require Further Advice??

Please email the site for further details, or call 07812 985296 / 01353 669088

*************************************************************************************** * Generated using Power Tab Editor by Brad Larsen - http://powertab.guitarnetwork.org * ***************************************************************************************