Jimi Hendrix "Purple Haze"

#----------------------------------PLEASE NOTE---------------------------------#
#This file is the author's own work and represents their interpretation of the #
#song. You may only use this file for private study, scholarship, or research. #
#------------------------------------------------------------------------------##

                             PURPLE HAZE (Bassline)
                   As recorded by The Jimi Hendrix Experience
                   (From the 1967 Album ARE YOU EXPERIENCED ?)

Words and Music by Jimi Hendrix 
Transcribed by www.mikesguitarsite.co.uk

 Intro
  Q=112
 4/4
  Gtr I
  q  q  q  q    q  q  q  q    q  q  q  q    q  q  q  q
|----9-----9--|----9-----9--|----9-----9--|----9-----9--|
|-------------|-------------|-------------|-------------|
|-7-----7-----|-7-----7-----|-7-----7-----|-7-----7-----|
|-------------|-------------|-------------|-------------|


  q  q  q  q    q  q  q  q    q  q  q  q    q  q  q  q
|----9-----9--|----9-----9--|----9-----9--|----9-----9--|
|-------------|-------------|-------------|-------------|
|-7-----7-----|-7-----7-----|-7-----7-----|-7-----7-----|
|-------------|-------------|-------------|-------------|


  q  q  q  q    q  q  q  E S S   E E Q  E E Q
|----9-----9--|----9-----------|---------------|
|-------------|----------------|---------------|
|-7-----7-----|-7-----7--7-5-6-|-7-7-7--7---7--|
|-------------|----------------|----------0----|


  E E E E E E S S S S   E  E  Q  E E E  E    E E E E E E S S S S
|---------------------|--------------------|---------------------||
|---------------------|--------------------|---------------------||
|-----5-------4-4-5-5-|-7-(7)-7--7-7-7-(7)-|-----5-------x-4-5-5-||
|-3-3---3-5-5---------|--------------------|-3-3---3-5-5---------||


 Verse 1
  E E Q  E E Q    E E Q  S S E S S S S   Q  Q  E E Q
|---------------|----------------------|--------------|
|---------------|----------------------|--------------|
|-7-7-7--7---7--|--------------4-4-5-5-|-7--7--7---7--|
|----------0----|-3-3-3--5-5-5---------|---------0----|


  E E E E S S E S S E   E E E E E E Q    E E E E E E E E
|---------------------|----------------|------------------|
|---------------------|----------------|------------------|
|---------------4-4-5-|-7-7-7-7-7-7-7--|-------------4-5--|
|-3-3-3-3-5-5-5-------|----------------|-3-3-3-3-5-5------|


  Q  Q  H      H    a E E Q     E E  Q    E E  Q
|------------|---------------|----7-12\-----7-12\--||
|------------|---------------|-/9--------/9--------||
|-7----------|------7s9-7-5--|---------------------||
|------------|---------------|---------------------||


 Verse 2
  E E Q  E E Q    E E Q  S S E S S S S   Q  Q  E E Q
|---------------|----------------------|----------------|
|---------------|----------------------|----------------|
|-7-7-7--7---7--|--------------4-4-5-5-|-7--7--7---7----|
|----------0----|-3-3-3--5-5-5---------|---------0------|


  E E E E S S E S S E   E E E E E E Q    E E E E E E E E
|---------------------|----------------|------------------|
|---------------------|----------------|------------------|
|---------------4-4-5-|-7-7-7-7-7-7-7--|-------------4-5--|
|-3-3-3-3-5-5-5-------|----------------|-3-3-3-3-5-5------|


  Q  Q  H      H    a E E Q     E E  Q    E E  Q
|------------|---------------|----7-12\-----7-12\--|
|------------|---------------|-/9--------/9--------|
|-7----------|------7s9-7-5--|---------------------|
|------------|---------------|---------------------|


  E E Q  E E E. S   E E Q  E E Q    E E Q  E E E E
|-----------------|---------------|----------------||
|-----------------|---------------|----------------||
|-----------------|---------------|-5-5-5--5-5-5-6-||
|-5-5-5--5-5-5--5-|-7-7-7--7-7-7--|----------------||


 Guitar Solo
  Q  Q  E E E S S    Q   Q  E S S E S S   Q  E E E E E S S
|-----------------|---------------------|------------------|
|-----------------|---------------------|------------------|
|----7--7-7-7-7-8-|-/9--/9--5-5-5-5-5-6-|-7--7-7-----------|
|-0---------------|---------------------|--------0-0-0-0-0-|


   Q   Q  E E E S S   Q  E E E E E E    Q   Q  E S S E S S
|-------------------|----------------|---------------------|
|-------------------|----------------|---------------------|
|-/9--/9--5-5-5-5-6-|-7----7-7-7-----|-/9--/9--5-5-5-5-5-6-|
|-------------------|------------0-0-|---------------------|


  Q  E. S E E E E    Q   Q  E E E E
|-----------------|-----------------||
|-----------------|-----------------||
|----7------------|-/9--/9--5-5-5-6-||
|-0-----0-0-0-0-0-|-----------------||


  q  q  q  q    q  q  q  q    q  q  q  q    q  q  q  q
|----9-----9--|----9-----9--|----9-----9--|----9-----9--|
|-------------|-------------|-------------|-------------|
|-7-----7-----|-7-----7-----|-7-----7-----|-7-----7-----|
|-------------|-------------|-------------|-------------|


  q  q  q  q    q  q  q  q    q  q  q  q    q  q  q  q
|----9-----9--|----9-----9--|----9-----9--|----9-----9--||
|-------------|-------------|-------------|-------------||
|-7-----7-----|-7-----7-----|-7-----7-----|-7-----7-----||
|-------------|-------------|-------------|-------------||


 Verse 3
  E E Q  E E Q    E E Q  S S E S S S S   Q  Q  E E Q
|---------------|----------------------|--------------|
|---------------|----------------------|--------------|
|-7-7-7--7---7--|--------------4-4-5-5-|-7--7--7---7--|
|----------0----|-3-3-3--5-5-5---------|---------0----|


  E E E E S S E S S E   E E E E E E Q    E E E E E E E E
|---------------------|----------------|------------------|
|---------------------|----------------|------------------|
|---------------4-4-5-|-7-7-7-7-7-7-7--|-------------4-5--|
|-3-3-3-3-5-5-5-------|----------------|-3-3-3-3-5-5------|


  Q  Q  H      H    a E E Q     E E  Q    E E  Q
|------------|---------------|----7-12\-----7-12\--||
|------------|---------------|-/9--------/9--------||
|-7----------|------7s9-7-5--|---------------------||
|------------|---------------|---------------------||


 Outro
  E E Q  E E Q    E E Q  E E Q    Q  E E E E E E
|---------------|---------------|------7---------|
|---------------|---------------|----------------|
|---------------|---------------|-5--5---5-5-6-6-|
|-5-5-5--5-5-5--|-7-7-7--7-7-7--|----------------|


    Q  Q  E E E E   a E a E a E a E Q  E E  7x
||----------------|-------------------------||
||o---------------|------------------------o||
||o----7--7---7-7-|-7s9-7s9-7s9-7s9-5--5-6-o||
||--0-------0-----|-------------------------||



***************************************************************************************
* Generated using Power Tab Editor by Brad Larsen - http://powertab.guitarnetwork.org *
***************************************************************************************