Enter Sandman - Metallica


Intro/Verse Riff 

|--------------------------| 
|--------------------------| 
|--------------------------| 
|--0--0--0--0--0--0--0--1--| 




|--------------------------| 
|--------------------------| x3 
|--------------------------| 
|--0--0--0--6--5--5--0--0--| 

|---------------------------| 
|---------------------------| 
|---------------------------| 
|--3---0--2--0--2--3--2--0--| 


Pre-Chorus Riff 

|-----------------|--------------|--------------| 
|-----------------|--------------|--------------| 
|---------2-------|------2-------|------2-------| 
|--2-----------2--|-----------2--|-----------2--| 

|--------------------------| 
|--------------------------| 
|--------------------------| 
|--2--2--2--2--2--0--0--1--| 

 

Chorus Riff 

|--------------------------|----------------------------| 
|--------------------------|----------------------------| 
|-----------3--2--2--2-----|----------3--2--2--2--------| 
|--2--2--2--------------2--|----2--2--------------2--2--| 

|-----------------------------------------------| 
|-----------------------------------------------| 
|-------3--2--2--2------------5-----7--5--------| 
|-2--2--------------0----5/7-----7--------7--3--| 

|-----------------------|-----------------------------| 
|-----------------------|-----------------------------| 
|--------3--2--2--2-----|-----------------------------| 
|2----2--------------0--|--0--0--2--0--3--0--5--0--3--| 
                                              pm  . 

Require Further Advice??

Please email the site for further details, or call 07812 985296 / 01353 669088