Ace Of Spades

ACE OF SPADES (Bassline)
                            As recorded by Motorhead
                       (From the 1980 Album ACE OF SPADES)

Words and Music by Ian F. Kilminster, Edward A. Clark, and Philip J. Taylor
Arranged by Ian F. Kilminster, Edward A. Clark, and Philip J. Taylor
Transcribed by Dave Whitehill

   Intro
    w/Double-Time Feel Q=141
    N.C.(E5)
   4/4
    Gtrs I, II
                                              TP
    E  S S +S  S S S  E  E  E  E   3x S S S S H     Q
||---------------------------------||-------------------|
||o-------------------------------o||-------------------|
||o-7--7-7-(7)-7-7-7--7--7--7--5--o||-7-7-7-7-7S===18\--|
||---------------------------------||-------------------|


    N.C.(E5)
    E  E  S S E  E  S S +S  S E   3x  E  E  S S E  E  S S +E   E
||--------------------------------||-------------------------------|
||o------------------------------o||-------------------------------|
||o-7--7--7-7-7--7--7-7-(7)-7-5--o||--7--7--7-7-7--7--7-7-(7)------|
||--------------------------------||---------------------------7\--|


   1st, 2nd, and 3rd Verses
    $
    G5
    E Q  E +H       E Q.   +H       E Q.   +H       E. S +E  E +E  E Q
||----------------|---------------|---------------|----------------------|
||o------5-(5)----|---------------|---------------|----------------------|
||o---------------|---------------|---------------|----------------------|
||--3-3-----------|-3-3----(3)----|-3-3----(3)----|-3--3-(3)-3-(3)-3-3---|


  N.C.(E5)
  E  E  S S E  E  S S +S  S E    E  E  S S E  E  S S +S  S E
|------------------------------|------------------------------|
|------------------------------|------------------------------|
|-7--7--7-7-7--7--7-7-(7)-7-5--|-7--7--7-7-7--7--7-7-(7)-7-5--|
|------------------------------|------------------------------|


  E  E  S S E  E  S S +S  S E    E  E  S S E  E  S S +E   E
|------------------------------|-----------------------------|
|------------------------------|-----------------------------|
|-7--7--7-7-7--7--7-7-(7)-7-7--|-7--7--7-7-7--7--7-7-(7)--6--|
|------------------------------|-----------------------------|


  D5          C5
  H    H      H    H
|------7----|------5----|
|------x----|------x----|
|-5----5----|-3----3----|
|-----------|-----------|


  N.C.(E5)
  E  E  S S E  E  S S +S  S E    E  E  S S E  E  S S +S  S E
|------------------------------|------------------------------|
|------------------------------|------------------------------|
|-7--7--7-7-7--7--7-7-(7)-7-5--|-7--7--7-7-7--7--7-7-(7)-7-6--|
|------------------------------|------------------------------|


  D5               C5
  E Q.   +Q.   E   E Q.   H
|---7----(7)-----|--------5----|
|---x----(x)-----|--------x----|
|-5-5----(5)-----|-3-3----3----|
|----------------|-------------|


 Chorus
                                                      To Coda
  N.C.(E5)
  E  E  S S E  E  S S +S  S E    E  E  S S E  E  S S +S  S E
|------------------------------|------------------------------|
|------------------------------|------------------------------|
|-7--7--7-7-7--7--7-7-(7)-7-7--|-7--7--7-7-7--7--7-7-(7)-7-7--|
|------------------------------|------------------------------|


  1.
  E  E  S S E  E  S S +S  S E    E  E  S S E  E  S S +S  S E
|------------------------------|-------------------------------||
|------------------------------|------------------------------o||
|-7--7--7-7-7--7--7-7-(7)-7-7--|-7--7--7-7-7--7--7-7-(7)-7-7--o||
|------------------------------|-------------------------------||


    2.
    E  E  S S E  E  S S +S  S E    E  E  S S E  E  S S +S  S E
||-------------------------------|------------------------------||
||o------------------------------|-----------------------------o||
||o-7--7--7-7-7--7--7-7-(7)-7-5--|-7--7--7-7-7--7--7-7-(7)-7-5-o||
||-------------------------------|------------------------------||


 Bridge
  N.C.(Em)   E5
  Q  Q  Q  E E   Q  Q  H         W       E E E E E E E E
|--------------|------------|----------|-----------------|
|--------------|------------|----------|-----------------|
|-7----------5-|-7----------|----------|-7-7-7-7-7-7-7-7-|
|--------------|------------|----------|-----------------|


  D5
  E  E  S S E  E  S S +S  S E    E  S S S S E  a  E.   S +E   E
|-7--7--7-7-7--7--7-7-(7)-7-7--|-7--7-7-7-7-7--7h=9----7-(7)--5-|
|-0--0--0-0-0--0--0-0-(0)-0-0--|-0--0-0-0-0-0--0-(0)---0-(0)--0-|
|------------------------------|--------------------------------|
|------------------------------|--------------------------------|


  B5
  E Q.   +E   S S S S E    W
|-4-4----(4)--4-4-4-4-4--|-4----||
|-x-x----(x)--x-x-x-x-x--|-x----||
|-2-2----(2)--2-2-2-2-2--|-2----||
|------------------------|------||


   Guitar Solo
    A5
    E  E  S S E  E  S S +E   E   3x E.   S +E   E  +E   E  E  E
||-------------------------------||-----------------------------|
||o-7--7--7-7-7--7--7-7-(7)--7--o||-7----7-(7)--7--(7)--7--7--7-|
||o-----------------------------o||-----------------------------|
||-------------------------------||-----------------------------|


    B5
    E  E  S S E  E  S S +E   E   3x E.   S +E   E +S   E.   Q
||-------------------------------||-----------------------------|
||o-9--9--9-9-9--9--9-9-(9)--9--o||-9----9-(9)--9-(9)--9----9---|
||o-----------------------------o||-----------------------------|
||-------------------------------||-----------------------------|


    A5
    E  E  S S E  E  S S +E   E   3x E.   S +E   E  +E   E  E  E
||-------------------------------||-----------------------------|
||o-7--7--7-7-7--7--7-7-(7)--7--o||-7----7-(7)--7--(7)--7--7--7-|
||o-----------------------------o||-----------------------------|
||-------------------------------||-----------------------------|


                                                         D.S. al Coda
    N.C.(E5)
    E  E  S S E  E  S S +S  S E          E  E  S S E  E  S S +S  S E
||--------------------------------||-||--------------------------------||
||o------------------------------o||-||o------------------------------o||
||o-7--7--7-7-7--7--7-7-(7)-7-5--o||-||o-7--7--7-7-7--7--7-7-(7)-7-7--o||
||--------------------------------||-||--------------------------------||


   Outro
    &
    N.C.(E5)
    E  E  S S E  E  S S +S  S E    E  E  S S E  E  S S +S  S E
||-------------------------------|------------------------------||
||o------------------------------|-----------------------------o||
||o-7--7--7-7-7--7--7-7-(7)-7-7--|-7--7--7-7-7--7--7-7-(7)-7-7-o||
||-------------------------------|------------------------------||


    D5/A      C5/G         E/B  D/A    E/B
    W         W            E.   S +E   E  +Q     Q
||----------|-----------||--------------------------|
||o---------|----------o||--------------------------|
||o-5-------|-3--------o||-7----5-(5)--7--(7)\------|
||----------|-----------||--------------------------|


  E/B  D/A    E/B
  E.   S +E   E  +Q     Q
|----------------------------*|
|----------------------------*|
|-7----5-(5)--7--(7)\--------*|
|----------------------------*|



***************************************************************************************
* Generated using Power Tab Editor by Brad Larsen - http://powertab.guitarnetwork.org *
***************************************************************************************